ISO-10303-21;
HEADER;
FILE_DESCRIPTION((''),'2;1');
FILE_NAME('PRT0027','2025-06-17T10:01:42',('lx'),(''),
'CREO PARAMETRIC BY PTC INC, 2018100','CREO PARAMETRIC BY PTC INC, 2018100','');
FILE_SCHEMA(('CONFIG_CONTROL_DESIGN'));
ENDSEC;
DATA;
#1=DIRECTION('',(0.E0,-1.E0,0.E0));
#2=VECTOR('',#1,2.5E1);
#3=CARTESIAN_POINT('',(-2.35E1,1.25E1,0.E0));
#4=LINE('',#3,#2);
#5=DIRECTION('',(1.E0,0.E0,0.E0));
#6=VECTOR('',#5,4.7E1);
#7=CARTESIAN_POINT('',(-2.35E1,-1.25E1,0.E0));
#8=LINE('',#7,#6);
#9=DIRECTION('',(0.E0,1.E0,0.E0));
#10=VECTOR('',#9,2.5E1);
#11=CARTESIAN_POINT('',(2.35E1,-1.25E1,0.E0));
#12=LINE('',#11,#10);
#13=DIRECTION('',(-1.E0,0.E0,0.E0));
#14=VECTOR('',#13,4.7E1);
#15=CARTESIAN_POINT('',(2.35E1,1.25E1,0.E0));
#16=LINE('',#15,#14);
#17=CARTESIAN_POINT('',(8.5E0,8.5E0,0.E0));
#18=DIRECTION('',(0.E0,0.E0,1.E0));
#19=DIRECTION('',(0.E0,-1.E0,0.E0));
#20=AXIS2_PLACEMENT_3D('',#17,#18,#19);
#22=CARTESIAN_POINT('',(8.5E0,8.5E0,0.E0));
#23=DIRECTION('',(0.E0,0.E0,1.E0));
#24=DIRECTION('',(0.E0,1.E0,0.E0));
#25=AXIS2_PLACEMENT_3D('',#22,#23,#24);
#27=CARTESIAN_POINT('',(8.5E0,-8.5E0,0.E0));
#28=DIRECTION('',(0.E0,0.E0,1.E0));
#29=DIRECTION('',(0.E0,-1.E0,0.E0));
#30=AXIS2_PLACEMENT_3D('',#27,#28,#29);
#32=CARTESIAN_POINT('',(8.5E0,-8.5E0,0.E0));
#33=DIRECTION('',(0.E0,0.E0,1.E0));
#34=DIRECTION('',(0.E0,1.E0,0.E0));
#35=AXIS2_PLACEMENT_3D('',#32,#33,#34);
#37=CARTESIAN_POINT('',(-8.5E0,-8.5E0,0.E0));
#38=DIRECTION('',(0.E0,0.E0,1.E0));
#39=DIRECTION('',(0.E0,-1.E0,0.E0));
#40=AXIS2_PLACEMENT_3D('',#37,#38,#39);
#42=CARTESIAN_POINT('',(-8.5E0,-8.5E0,0.E0));
#43=DIRECTION('',(0.E0,0.E0,1.E0));
#44=DIRECTION('',(0.E0,1.E0,0.E0));
#45=AXIS2_PLACEMENT_3D('',#42,#43,#44);
#47=CARTESIAN_POINT('',(-8.5E0,8.5E0,0.E0));
#48=DIRECTION('',(0.E0,0.E0,1.E0));
#49=DIRECTION('',(0.E0,-1.E0,0.E0));
#50=AXIS2_PLACEMENT_3D('',#47,#48,#49);
#52=CARTESIAN_POINT('',(-8.5E0,8.5E0,0.E0));
#53=DIRECTION('',(0.E0,0.E0,1.E0));
#54=DIRECTION('',(0.E0,1.E0,0.E0));
#55=AXIS2_PLACEMENT_3D('',#52,#53,#54);
#57=DIRECTION('',(0.E0,0.E0,1.E0));
#58=VECTOR('',#57,4.E0);
#59=CARTESIAN_POINT('',(-2.35E1,1.25E1,0.E0));
#60=LINE('',#59,#58);
#61=DIRECTION('',(0.E0,0.E0,1.E0));
#62=VECTOR('',#61,4.E0);
#63=CARTESIAN_POINT('',(2.35E1,1.25E1,0.E0));
#64=LINE('',#63,#62);
#65=DIRECTION('',(0.E0,0.E0,1.E0));
#66=VECTOR('',#65,4.E0);
#67=CARTESIAN_POINT('',(2.35E1,-1.25E1,0.E0));
#68=LINE('',#67,#66);
#69=DIRECTION('',(0.E0,0.E0,1.E0));
#70=VECTOR('',#69,4.E0);
#71=CARTESIAN_POINT('',(-2.35E1,-1.25E1,0.E0));
#72=LINE('',#71,#70);
#73=DIRECTION('',(0.E0,-1.E0,0.E0));
#74=VECTOR('',#73,2.5E1);
#75=CARTESIAN_POINT('',(-2.35E1,1.25E1,4.E0));
#76=LINE('',#75,#74);
#77=DIRECTION('',(-1.E0,0.E0,0.E0));
#78=VECTOR('',#77,4.7E1);
#79=CARTESIAN_POINT('',(2.35E1,1.25E1,4.E0));
#80=LINE('',#79,#78);
#81=DIRECTION('',(0.E0,1.E0,0.E0));
#82=VECTOR('',#81,2.5E1);
#83=CARTESIAN_POINT('',(2.35E1,-1.25E1,4.E0));
#84=LINE('',#83,#82);
#85=DIRECTION('',(1.E0,0.E0,0.E0));
#86=VECTOR('',#85,4.7E1);
#87=CARTESIAN_POINT('',(-2.35E1,-1.25E1,4.E0));
#88=LINE('',#87,#86);
#89=CARTESIAN_POINT('',(8.5E0,8.5E0,4.E0));
#90=DIRECTION('',(0.E0,0.E0,1.E0));
#91=DIRECTION('',(0.E0,-1.E0,0.E0));
#92=AXIS2_PLACEMENT_3D('',#89,#90,#91);
#94=CARTESIAN_POINT('',(8.5E0,8.5E0,4.E0));
#95=DIRECTION('',(0.E0,0.E0,1.E0));
#96=DIRECTION('',(0.E0,1.E0,0.E0));
#97=AXIS2_PLACEMENT_3D('',#94,#95,#96);
#99=CARTESIAN_POINT('',(8.5E0,-8.5E0,4.E0));
#100=DIRECTION('',(0.E0,0.E0,1.E0));
#101=DIRECTION('',(0.E0,-1.E0,0.E0));
#102=AXIS2_PLACEMENT_3D('',#99,#100,#101);
#104=CARTESIAN_POINT('',(8.5E0,-8.5E0,4.E0));
#105=DIRECTION('',(0.E0,0.E0,1.E0));
#106=DIRECTION('',(0.E0,1.E0,0.E0));
#107=AXIS2_PLACEMENT_3D('',#104,#105,#106);
#109=CARTESIAN_POINT('',(-8.5E0,-8.5E0,4.E0));
#110=DIRECTION('',(0.E0,0.E0,1.E0));
#111=DIRECTION('',(0.E0,-1.E0,0.E0));
#112=AXIS2_PLACEMENT_3D('',#109,#110,#111);
#114=CARTESIAN_POINT('',(-8.5E0,-8.5E0,4.E0));
#115=DIRECTION('',(0.E0,0.E0,1.E0));
#116=DIRECTION('',(0.E0,1.E0,0.E0));
#117=AXIS2_PLACEMENT_3D('',#114,#115,#116);
#119=CARTESIAN_POINT('',(-8.5E0,8.5E0,4.E0));
#120=DIRECTION('',(0.E0,0.E0,1.E0));
#121=DIRECTION('',(0.E0,-1.E0,0.E0));
#122=AXIS2_PLACEMENT_3D('',#119,#120,#121);
#124=CARTESIAN_POINT('',(-8.5E0,8.5E0,4.E0));
#125=DIRECTION('',(0.E0,0.E0,1.E0));
#126=DIRECTION('',(0.E0,1.E0,0.E0));
#127=AXIS2_PLACEMENT_3D('',#124,#125,#126);
#129=DIRECTION('',(0.E0,0.E0,1.E0));
#130=VECTOR('',#129,4.E0);
#131=CARTESIAN_POINT('',(8.5E0,6.25E0,0.E0));
#132=LINE('',#131,#130);
#133=DIRECTION('',(0.E0,0.E0,1.E0));
#134=VECTOR('',#133,4.E0);
#135=CARTESIAN_POINT('',(8.5E0,1.075E1,0.E0));
#136=LINE('',#135,#134);
#137=DIRECTION('',(0.E0,0.E0,1.E0));
#138=VECTOR('',#137,4.E0);
#139=CARTESIAN_POINT('',(8.5E0,-1.075E1,0.E0));
#140=LINE('',#139,#138);
#141=DIRECTION('',(0.E0,0.E0,1.E0));
#142=VECTOR('',#141,4.E0);
#143=CARTESIAN_POINT('',(8.5E0,-6.25E0,0.E0));
#144=LINE('',#143,#142);
#145=DIRECTION('',(0.E0,0.E0,1.E0));
#146=VECTOR('',#145,4.E0);
#147=CARTESIAN_POINT('',(-8.5E0,-1.075E1,0.E0));
#148=LINE('',#147,#146);
#149=DIRECTION('',(0.E0,0.E0,1.E0));
#150=VECTOR('',#149,4.E0);
#151=CARTESIAN_POINT('',(-8.5E0,-6.25E0,0.E0));
#152=LINE('',#151,#150);
#153=DIRECTION('',(0.E0,0.E0,1.E0));
#154=VECTOR('',#153,4.E0);
#155=CARTESIAN_POINT('',(-8.5E0,6.25E0,0.E0));
#156=LINE('',#155,#154);
#157=DIRECTION('',(0.E0,0.E0,1.E0));
#158=VECTOR('',#157,4.E0);
#159=CARTESIAN_POINT('',(-8.5E0,1.075E1,0.E0));
#160=LINE('',#159,#158);
#161=CARTESIAN_POINT('',(-2.35E1,1.25E1,0.E0));
#162=CARTESIAN_POINT('',(-2.35E1,-1.25E1,0.E0));
#163=VERTEX_POINT('',#161);
#164=VERTEX_POINT('',#162);
#165=CARTESIAN_POINT('',(2.35E1,-1.25E1,0.E0));
#166=VERTEX_POINT('',#165);
#167=CARTESIAN_POINT('',(2.35E1,1.25E1,0.E0));
#168=VERTEX_POINT('',#167);
#169=CARTESIAN_POINT('',(-2.35E1,1.25E1,4.E0));
#170=CARTESIAN_POINT('',(-2.35E1,-1.25E1,4.E0));
#171=VERTEX_POINT('',#169);
#172=VERTEX_POINT('',#170);
#173=CARTESIAN_POINT('',(2.35E1,-1.25E1,4.E0));
#174=VERTEX_POINT('',#173);
#175=CARTESIAN_POINT('',(2.35E1,1.25E1,4.E0));
#176=VERTEX_POINT('',#175);
#177=CARTESIAN_POINT('',(8.5E0,6.25E0,0.E0));
#178=CARTESIAN_POINT('',(8.5E0,1.075E1,0.E0));
#179=VERTEX_POINT('',#177);
#180=VERTEX_POINT('',#178);
#181=CARTESIAN_POINT('',(8.5E0,-1.075E1,0.E0));
#182=CARTESIAN_POINT('',(8.5E0,-6.25E0,0.E0));
#183=VERTEX_POINT('',#181);
#184=VERTEX_POINT('',#182);
#185=CARTESIAN_POINT('',(-8.5E0,-1.075E1,0.E0));
#186=CARTESIAN_POINT('',(-8.5E0,-6.25E0,0.E0));
#187=VERTEX_POINT('',#185);
#188=VERTEX_POINT('',#186);
#189=CARTESIAN_POINT('',(-8.5E0,6.25E0,0.E0));
#190=CARTESIAN_POINT('',(-8.5E0,1.075E1,0.E0));
#191=VERTEX_POINT('',#189);
#192=VERTEX_POINT('',#190);
#193=CARTESIAN_POINT('',(8.5E0,6.25E0,4.E0));
#194=CARTESIAN_POINT('',(8.5E0,1.075E1,4.E0));
#195=VERTEX_POINT('',#193);
#196=VERTEX_POINT('',#194);
#197=CARTESIAN_POINT('',(8.5E0,-1.075E1,4.E0));
#198=CARTESIAN_POINT('',(8.5E0,-6.25E0,4.E0));
#199=VERTEX_POINT('',#197);
#200=VERTEX_POINT('',#198);
#201=CARTESIAN_POINT('',(-8.5E0,-1.075E1,4.E0));
#202=CARTESIAN_POINT('',(-8.5E0,-6.25E0,4.E0));
#203=VERTEX_POINT('',#201);
#204=VERTEX_POINT('',#202);
#205=CARTESIAN_POINT('',(-8.5E0,6.25E0,4.E0));
#206=CARTESIAN_POINT('',(-8.5E0,1.075E1,4.E0));
#207=VERTEX_POINT('',#205);
#208=VERTEX_POINT('',#206);
#209=CARTESIAN_POINT('',(0.E0,0.E0,0.E0));
#210=DIRECTION('',(0.E0,0.E0,1.E0));
#211=DIRECTION('',(1.E0,0.E0,0.E0));
#212=AXIS2_PLACEMENT_3D('',#209,#210,#211);
#213=PLANE('',#212);
#215=ORIENTED_EDGE('',*,*,#214,.T.);
#217=ORIENTED_EDGE('',*,*,#216,.T.);
#219=ORIENTED_EDGE('',*,*,#218,.T.);
#221=ORIENTED_EDGE('',*,*,#220,.T.);
#222=EDGE_LOOP('',(#215,#217,#219,#221));
#223=FACE_OUTER_BOUND('',#222,.F.);
#225=ORIENTED_EDGE('',*,*,#224,.F.);
#227=ORIENTED_EDGE('',*,*,#226,.F.);
#228=EDGE_LOOP('',(#225,#227));
#229=FACE_BOUND('',#228,.F.);
#231=ORIENTED_EDGE('',*,*,#230,.F.);
#233=ORIENTED_EDGE('',*,*,#232,.F.);
#234=EDGE_LOOP('',(#231,#233));
#235=FACE_BOUND('',#234,.F.);
#237=ORIENTED_EDGE('',*,*,#236,.F.);
#239=ORIENTED_EDGE('',*,*,#238,.F.);
#240=EDGE_LOOP('',(#237,#239));
#241=FACE_BOUND('',#240,.F.);
#243=ORIENTED_EDGE('',*,*,#242,.F.);
#245=ORIENTED_EDGE('',*,*,#244,.F.);
#246=EDGE_LOOP('',(#243,#245));
#247=FACE_BOUND('',#246,.F.);
#248=ADVANCED_FACE('',(#223,#229,#235,#241,#247),#213,.F.);
#249=CARTESIAN_POINT('',(-2.35E1,1.25E1,0.E0));
#250=DIRECTION('',(-1.E0,0.E0,0.E0));
#251=DIRECTION('',(0.E0,-1.E0,0.E0));
#252=AXIS2_PLACEMENT_3D('',#249,#250,#251);
#253=PLANE('',#252);
#254=ORIENTED_EDGE('',*,*,#214,.F.);
#256=ORIENTED_EDGE('',*,*,#255,.T.);
#258=ORIENTED_EDGE('',*,*,#257,.T.);
#260=ORIENTED_EDGE('',*,*,#259,.F.);
#261=EDGE_LOOP('',(#254,#256,#258,#260));
#262=FACE_OUTER_BOUND('',#261,.F.);
#263=ADVANCED_FACE('',(#262),#253,.T.);
#264=CARTESIAN_POINT('',(2.35E1,1.25E1,0.E0));
#265=DIRECTION('',(0.E0,1.E0,0.E0));
#266=DIRECTION('',(-1.E0,0.E0,0.E0));
#267=AXIS2_PLACEMENT_3D('',#264,#265,#266);
#268=PLANE('',#267);
#269=ORIENTED_EDGE('',*,*,#220,.F.);
#271=ORIENTED_EDGE('',*,*,#270,.T.);
#273=ORIENTED_EDGE('',*,*,#272,.T.);
#274=ORIENTED_EDGE('',*,*,#255,.F.);
#275=EDGE_LOOP('',(#269,#271,#273,#274));
#276=FACE_OUTER_BOUND('',#275,.F.);
#277=ADVANCED_FACE('',(#276),#268,.T.);
#278=CARTESIAN_POINT('',(2.35E1,-1.25E1,0.E0));
#279=DIRECTION('',(1.E0,0.E0,0.E0));
#280=DIRECTION('',(0.E0,1.E0,0.E0));
#281=AXIS2_PLACEMENT_3D('',#278,#279,#280);
#282=PLANE('',#281);
#283=ORIENTED_EDGE('',*,*,#218,.F.);
#285=ORIENTED_EDGE('',*,*,#284,.T.);
#287=ORIENTED_EDGE('',*,*,#286,.T.);
#288=ORIENTED_EDGE('',*,*,#270,.F.);
#289=EDGE_LOOP('',(#283,#285,#287,#288));
#290=FACE_OUTER_BOUND('',#289,.F.);
#291=ADVANCED_FACE('',(#290),#282,.T.);
#292=CARTESIAN_POINT('',(-2.35E1,-1.25E1,0.E0));
#293=DIRECTION('',(0.E0,-1.E0,0.E0));
#294=DIRECTION('',(1.E0,0.E0,0.E0));
#295=AXIS2_PLACEMENT_3D('',#292,#293,#294);
#296=PLANE('',#295);
#297=ORIENTED_EDGE('',*,*,#216,.F.);
#298=ORIENTED_EDGE('',*,*,#259,.T.);
#300=ORIENTED_EDGE('',*,*,#299,.T.);
#301=ORIENTED_EDGE('',*,*,#284,.F.);
#302=EDGE_LOOP('',(#297,#298,#300,#301));
#303=FACE_OUTER_BOUND('',#302,.F.);
#304=ADVANCED_FACE('',(#303),#296,.T.);
#305=CARTESIAN_POINT('',(0.E0,0.E0,4.E0));
#306=DIRECTION('',(0.E0,0.E0,1.E0));
#307=DIRECTION('',(1.E0,0.E0,0.E0));
#308=AXIS2_PLACEMENT_3D('',#305,#306,#307);
#309=PLANE('',#308);
#310=ORIENTED_EDGE('',*,*,#257,.F.);
#311=ORIENTED_EDGE('',*,*,#272,.F.);
#312=ORIENTED_EDGE('',*,*,#286,.F.);
#313=ORIENTED_EDGE('',*,*,#299,.F.);
#314=EDGE_LOOP('',(#310,#311,#312,#313));
#315=FACE_OUTER_BOUND('',#314,.F.);
#317=ORIENTED_EDGE('',*,*,#316,.T.);
#319=ORIENTED_EDGE('',*,*,#318,.T.);
#320=EDGE_LOOP('',(#317,#319));
#321=FACE_BOUND('',#320,.F.);
#323=ORIENTED_EDGE('',*,*,#322,.T.);
#325=ORIENTED_EDGE('',*,*,#324,.T.);
#326=EDGE_LOOP('',(#323,#325));
#327=FACE_BOUND('',#326,.F.);
#329=ORIENTED_EDGE('',*,*,#328,.T.);
#331=ORIENTED_EDGE('',*,*,#330,.T.);
#332=EDGE_LOOP('',(#329,#331));
#333=FACE_BOUND('',#332,.F.);
#335=ORIENTED_EDGE('',*,*,#334,.T.);
#337=ORIENTED_EDGE('',*,*,#336,.T.);
#338=EDGE_LOOP('',(#335,#337));
#339=FACE_BOUND('',#338,.F.);
#340=ADVANCED_FACE('',(#315,#321,#327,#333,#339),#309,.T.);
#341=CARTESIAN_POINT('',(8.5E0,8.5E0,0.E0));
#342=DIRECTION('',(0.E0,0.E0,1.E0));
#343=DIRECTION('',(0.E0,-1.E0,0.E0));
#344=AXIS2_PLACEMENT_3D('',#341,#342,#343);
#345=CYLINDRICAL_SURFACE('',#344,2.25E0);
#346=ORIENTED_EDGE('',*,*,#224,.T.);
#348=ORIENTED_EDGE('',*,*,#347,.T.);
#349=ORIENTED_EDGE('',*,*,#316,.F.);
#351=ORIENTED_EDGE('',*,*,#350,.F.);
#352=EDGE_LOOP('',(#346,#348,#349,#351));
#353=FACE_OUTER_BOUND('',#352,.F.);
#354=ADVANCED_FACE('',(#353),#345,.F.);
#355=CARTESIAN_POINT('',(8.5E0,8.5E0,0.E0));
#356=DIRECTION('',(0.E0,0.E0,1.E0));
#357=DIRECTION('',(0.E0,-1.E0,0.E0));
#358=AXIS2_PLACEMENT_3D('',#355,#356,#357);
#359=CYLINDRICAL_SURFACE('',#358,2.25E0);
#360=ORIENTED_EDGE('',*,*,#226,.T.);
#361=ORIENTED_EDGE('',*,*,#350,.T.);
#362=ORIENTED_EDGE('',*,*,#318,.F.);
#363=ORIENTED_EDGE('',*,*,#347,.F.);
#364=EDGE_LOOP('',(#360,#361,#362,#363));
#365=FACE_OUTER_BOUND('',#364,.F.);
#366=ADVANCED_FACE('',(#365),#359,.F.);
#367=CARTESIAN_POINT('',(8.5E0,-8.5E0,0.E0));
#368=DIRECTION('',(0.E0,0.E0,1.E0));
#369=DIRECTION('',(0.E0,-1.E0,0.E0));
#370=AXIS2_PLACEMENT_3D('',#367,#368,#369);
#371=CYLINDRICAL_SURFACE('',#370,2.25E0);
#372=ORIENTED_EDGE('',*,*,#230,.T.);
#374=ORIENTED_EDGE('',*,*,#373,.T.);
#375=ORIENTED_EDGE('',*,*,#322,.F.);
#377=ORIENTED_EDGE('',*,*,#376,.F.);
#378=EDGE_LOOP('',(#372,#374,#375,#377));
#379=FACE_OUTER_BOUND('',#378,.F.);
#380=ADVANCED_FACE('',(#379),#371,.F.);
#381=CARTESIAN_POINT('',(8.5E0,-8.5E0,0.E0));
#382=DIRECTION('',(0.E0,0.E0,1.E0));
#383=DIRECTION('',(0.E0,-1.E0,0.E0));
#384=AXIS2_PLACEMENT_3D('',#381,#382,#383);
#385=CYLINDRICAL_SURFACE('',#384,2.25E0);
#386=ORIENTED_EDGE('',*,*,#232,.T.);
#387=ORIENTED_EDGE('',*,*,#376,.T.);
#388=ORIENTED_EDGE('',*,*,#324,.F.);
#389=ORIENTED_EDGE('',*,*,#373,.F.);
#390=EDGE_LOOP('',(#386,#387,#388,#389));
#391=FACE_OUTER_BOUND('',#390,.F.);
#392=ADVANCED_FACE('',(#391),#385,.F.);
#393=CARTESIAN_POINT('',(-8.5E0,-8.5E0,0.E0));
#394=DIRECTION('',(0.E0,0.E0,1.E0));
#395=DIRECTION('',(0.E0,-1.E0,0.E0));
#396=AXIS2_PLACEMENT_3D('',#393,#394,#395);
#397=CYLINDRICAL_SURFACE('',#396,2.25E0);
#398=ORIENTED_EDGE('',*,*,#236,.T.);
#400=ORIENTED_EDGE('',*,*,#399,.T.);
#401=ORIENTED_EDGE('',*,*,#328,.F.);
#403=ORIENTED_EDGE('',*,*,#402,.F.);
#404=EDGE_LOOP('',(#398,#400,#401,#403));
#405=FACE_OUTER_BOUND('',#404,.F.);
#406=ADVANCED_FACE('',(#405),#397,.F.);
#407=CARTESIAN_POINT('',(-8.5E0,-8.5E0,0.E0));
#408=DIRECTION('',(0.E0,0.E0,1.E0));
#409=DIRECTION('',(0.E0,-1.E0,0.E0));
#410=AXIS2_PLACEMENT_3D('',#407,#408,#409);
#411=CYLINDRICAL_SURFACE('',#410,2.25E0);
#412=ORIENTED_EDGE('',*,*,#238,.T.);
#413=ORIENTED_EDGE('',*,*,#402,.T.);
#414=ORIENTED_EDGE('',*,*,#330,.F.);
#415=ORIENTED_EDGE('',*,*,#399,.F.);
#416=EDGE_LOOP('',(#412,#413,#414,#415));
#417=FACE_OUTER_BOUND('',#416,.F.);
#418=ADVANCED_FACE('',(#417),#411,.F.);
#419=CARTESIAN_POINT('',(-8.5E0,8.5E0,0.E0));
#420=DIRECTION('',(0.E0,0.E0,1.E0));
#421=DIRECTION('',(0.E0,-1.E0,0.E0));
#422=AXIS2_PLACEMENT_3D('',#419,#420,#421);
#423=CYLINDRICAL_SURFACE('',#422,2.25E0);
#424=ORIENTED_EDGE('',*,*,#242,.T.);
#426=ORIENTED_EDGE('',*,*,#425,.T.);
#427=ORIENTED_EDGE('',*,*,#334,.F.);
#429=ORIENTED_EDGE('',*,*,#428,.F.);
#430=EDGE_LOOP('',(#424,#426,#427,#429));
#431=FACE_OUTER_BOUND('',#430,.F.);
#432=ADVANCED_FACE('',(#431),#423,.F.);
#433=CARTESIAN_POINT('',(-8.5E0,8.5E0,0.E0));
#434=DIRECTION('',(0.E0,0.E0,1.E0));
#435=DIRECTION('',(0.E0,-1.E0,0.E0));
#436=AXIS2_PLACEMENT_3D('',#433,#434,#435);
#437=CYLINDRICAL_SURFACE('',#436,2.25E0);
#438=ORIENTED_EDGE('',*,*,#244,.T.);
#439=ORIENTED_EDGE('',*,*,#428,.T.);
#440=ORIENTED_EDGE('',*,*,#336,.F.);
#441=ORIENTED_EDGE('',*,*,#425,.F.);
#442=EDGE_LOOP('',(#438,#439,#440,#441));
#443=FACE_OUTER_BOUND('',#442,.F.);
#444=ADVANCED_FACE('',(#443),#437,.F.);
#445=CLOSED_SHELL('',(#248,#263,#277,#291,#304,#340,#354,#366,#380,#392,#406,
#418,#432,#444));
#446=MANIFOLD_SOLID_BREP('',#445);
#448=DIMENSIONAL_EXPONENTS(0.E0,0.E0,0.E0,0.E0,0.E0,0.E0,0.E0);
#450=PLANE_ANGLE_MEASURE_WITH_UNIT(PLANE_ANGLE_MEASURE(1.745329251994E-2),#449);
#451=(CONVERSION_BASED_UNIT('DEGREE',#450)NAMED_UNIT(*)PLANE_ANGLE_UNIT());
#453=UNCERTAINTY_MEASURE_WITH_UNIT(LENGTH_MEASURE(5.338325584451E-3),#447,
'closure',
'Maximum model space distance between geometric entities at asserted connectivities');
#454=(GEOMETRIC_REPRESENTATION_CONTEXT(3)GLOBAL_UNCERTAINTY_ASSIGNED_CONTEXT((
#453))GLOBAL_UNIT_ASSIGNED_CONTEXT((#447,#451,#452))REPRESENTATION_CONTEXT
('ID1','3'));
#456=APPLICATION_CONTEXT(
'CONFIGURATION CONTROLLED 3D DESIGNS OF MECHANICAL PARTS AND ASSEMBLIES');
#457=APPLICATION_PROTOCOL_DEFINITION('international standard',
'config_control_design',1994,#456);
#458=DESIGN_CONTEXT('',#456,'design');
#459=MECHANICAL_CONTEXT('',#456,'mechanical');
#460=PRODUCT('PRT0027','PRT0027','NOT SPECIFIED',(#459));
#461=PRODUCT_DEFINITION_FORMATION_WITH_SPECIFIED_SOURCE('1','LAST_VERSION',#460,
.MADE.);
#465=PRODUCT_CATEGORY('part','');
#466=PRODUCT_RELATED_PRODUCT_CATEGORY('detail','',(#460));
#467=PRODUCT_CATEGORY_RELATIONSHIP('','',#465,#466);
#468=SECURITY_CLASSIFICATION_LEVEL('unclassified');
#469=SECURITY_CLASSIFICATION('','',#468);
#470=CC_DESIGN_SECURITY_CLASSIFICATION(#469,(#461));
#471=APPROVAL_STATUS('approved');
#472=APPROVAL(#471,'');
#473=CC_DESIGN_APPROVAL(#472,(#469,#461,#462));
#474=CALENDAR_DATE(125,17,6);
#475=COORDINATED_UNIVERSAL_TIME_OFFSET(8,0,.AHEAD.);
#476=LOCAL_TIME(10,1,4.2E1,#475);
#477=DATE_AND_TIME(#474,#476);
#478=APPROVAL_DATE_TIME(#477,#472);
#479=DATE_TIME_ROLE('creation_date');
#480=CC_DESIGN_DATE_AND_TIME_ASSIGNMENT(#477,#479,(#462));
#481=DATE_TIME_ROLE('classification_date');
#482=CC_DESIGN_DATE_AND_TIME_ASSIGNMENT(#477,#481,(#469));
#483=PERSON('UNSPECIFIED','UNSPECIFIED',$,$,$,$);
#484=ORGANIZATION('UNSPECIFIED','UNSPECIFIED','UNSPECIFIED');
#485=PERSON_AND_ORGANIZATION(#483,#484);
#486=APPROVAL_ROLE('approver');
#487=APPROVAL_PERSON_ORGANIZATION(#485,#472,#486);
#488=PERSON_AND_ORGANIZATION_ROLE('creator');
#489=CC_DESIGN_PERSON_AND_ORGANIZATION_ASSIGNMENT(#485,#488,(#461,#462));
#490=PERSON_AND_ORGANIZATION_ROLE('design_supplier');
#491=CC_DESIGN_PERSON_AND_ORGANIZATION_ASSIGNMENT(#485,#490,(#461));
#492=PERSON_AND_ORGANIZATION_ROLE('classification_officer');
#493=CC_DESIGN_PERSON_AND_ORGANIZATION_ASSIGNMENT(#485,#492,(#469));
#494=PERSON_AND_ORGANIZATION_ROLE('design_owner');
#495=CC_DESIGN_PERSON_AND_ORGANIZATION_ASSIGNMENT(#485,#494,(#460));
#21=CIRCLE('',#20,2.25E0);
#26=CIRCLE('',#25,2.25E0);
#31=CIRCLE('',#30,2.25E0);
#36=CIRCLE('',#35,2.25E0);
#41=CIRCLE('',#40,2.25E0);
#46=CIRCLE('',#45,2.25E0);
#51=CIRCLE('',#50,2.25E0);
#56=CIRCLE('',#55,2.25E0);
#93=CIRCLE('',#92,2.25E0);
#98=CIRCLE('',#97,2.25E0);
#103=CIRCLE('',#102,2.25E0);
#108=CIRCLE('',#107,2.25E0);
#113=CIRCLE('',#112,2.25E0);
#118=CIRCLE('',#117,2.25E0);
#123=CIRCLE('',#122,2.25E0);
#128=CIRCLE('',#127,2.25E0);
#214=EDGE_CURVE('',#163,#164,#4,.T.);
#216=EDGE_CURVE('',#164,#166,#8,.T.);
#218=EDGE_CURVE('',#166,#168,#12,.T.);
#220=EDGE_CURVE('',#168,#163,#16,.T.);
#224=EDGE_CURVE('',#179,#180,#21,.T.);
#226=EDGE_CURVE('',#180,#179,#26,.T.);
#230=EDGE_CURVE('',#183,#184,#31,.T.);
#232=EDGE_CURVE('',#184,#183,#36,.T.);
#236=EDGE_CURVE('',#187,#188,#41,.T.);
#238=EDGE_CURVE('',#188,#187,#46,.T.);
#242=EDGE_CURVE('',#191,#192,#51,.T.);
#244=EDGE_CURVE('',#192,#191,#56,.T.);
#255=EDGE_CURVE('',#163,#171,#60,.T.);
#257=EDGE_CURVE('',#171,#172,#76,.T.);
#259=EDGE_CURVE('',#164,#172,#72,.T.);
#270=EDGE_CURVE('',#168,#176,#64,.T.);
#272=EDGE_CURVE('',#176,#171,#80,.T.);
#284=EDGE_CURVE('',#166,#174,#68,.T.);
#286=EDGE_CURVE('',#174,#176,#84,.T.);
#299=EDGE_CURVE('',#172,#174,#88,.T.);
#316=EDGE_CURVE('',#195,#196,#93,.T.);
#318=EDGE_CURVE('',#196,#195,#98,.T.);
#322=EDGE_CURVE('',#199,#200,#103,.T.);
#324=EDGE_CURVE('',#200,#199,#108,.T.);
#328=EDGE_CURVE('',#203,#204,#113,.T.);
#330=EDGE_CURVE('',#204,#203,#118,.T.);
#334=EDGE_CURVE('',#207,#208,#123,.T.);
#336=EDGE_CURVE('',#208,#207,#128,.T.);
#347=EDGE_CURVE('',#180,#196,#136,.T.);
#350=EDGE_CURVE('',#179,#195,#132,.T.);
#373=EDGE_CURVE('',#184,#200,#144,.T.);
#376=EDGE_CURVE('',#183,#199,#140,.T.);
#399=EDGE_CURVE('',#188,#204,#152,.T.);
#402=EDGE_CURVE('',#187,#203,#148,.T.);
#425=EDGE_CURVE('',#192,#208,#160,.T.);
#428=EDGE_CURVE('',#191,#207,#156,.T.);
#447=(LENGTH_UNIT()NAMED_UNIT(*)SI_UNIT(.MILLI.,.METRE.));
#449=(NAMED_UNIT(*)PLANE_ANGLE_UNIT()SI_UNIT($,.RADIAN.));
#452=(NAMED_UNIT(*)SI_UNIT($,.STERADIAN.)SOLID_ANGLE_UNIT());
#455=ADVANCED_BREP_SHAPE_REPRESENTATION('',(#446),#454);
#462=PRODUCT_DEFINITION('design','',#461,#458);
#463=PRODUCT_DEFINITION_SHAPE('','SHAPE FOR PRT0027.',#462);
#464=SHAPE_DEFINITION_REPRESENTATION(#463,#455);
ENDSEC;
END-ISO-10303-21;
